ελληνική μουσική
275 online   ·  208.862 μέλη

Παρτιτούρα Ο μπάμπης ο φλου του Παύλου Σιδιρόπουλου

kostas1997yo
Περαστική Νότα
Chat
04.12.2012, 15:41

Καλησπέρα παιδια θα ήθελα να ρώτησω αν υπάρχει καμία ιστοσελίδα για να βρίσκω παρτιτούρες στο πιανο και επίσης θα ήθελα να μάθω αν έχει κανείς παρτιτούρα για πιανο γιατ το τραγούδι "Ο Μπάμπης ο φλου" ευχαριστώ


#1   
killbill2
Σολίστ
Chat
04.12.2012, 15:46
αν θες τις συγχορδίες θα τις βρεις στο kithara.to τώρα προφανώς εσύ θες και τη μελωδία στο δεξί χέρι... Ε δεν είναι δύσκολο. Με μουσικό αυτί αν έχεις βγαίνει εύκολα
#2   
kostas1997yo
Περαστική Νότα
Chat
04.12.2012, 16:17
Δεν έχω ομώς :Ρ
#3   
Foidel
Φθασμένος
Chat
04.12.2012, 17:29

e|-----------------------|

B|----------1------------|

G|-0----2~~~~---2-0-2----|

D|-2---------------------|

A|-----------------------|

E|-----------------------|

Aυτό το παίζεις δύο φορές..

Ύστερα παίζεις μία φορά αυτό και μπαίνεις στο κουπλέ

e|-----------------------|

B|-----------------------|

G|---------0-------------|

D|-0--2~~-----2-0--------|

A|-2-------------3-0-----|

E|-----------------------|

Χωρίς να είμαι σίγουρος γιατί δεν έχω πολύ καλό αυτί...


#4   
kostas1997yo
Περαστική Νότα
Chat
04.12.2012, 20:06
αυτό είναι για πιάνο?
#5   
Foidel
Φθασμένος
Chat
08.04.2013, 19:52

Eίναι tab για κιθάρα


#6   


Αυτά τα διάβασες;