ελληνική μουσική
117 online   ·  209.198 μέλη

Simple Man - Lynyrd Skynard

Kokkinos_Daimonas
Περαστική Νότα
Chat
22.02.2004, 01:18
Psaxnw gia tab toy "simple man" twn Lynyrd Skynard.Mporei na voi8hsei kapoios?

[ Το μήνυμα επεξεργάστηκε από: jorge on 24-02-2004 23:06 ]
#1   
elissavet
Περαστική Νότα
Chat
24.02.2004, 21:08
http://www.olga.net/dynamic/browse.php?local=main/l/lynyrd_skynyrd/simple_man.tab


good luck
#2   
zappas
Περαστική Νότα
Chat
24.02.2004, 22:27
#This file is the author's own work and represents their interpretation of the#
#song. You may only use this file for private study, scholarship, or research.#
#-----------------------------------------------------------------------------#


Author/Artist: Lynyrd Skynyrd
Title: Simple Man
Transcribed by: Electric
Email: electrictabs@yahoo.com
http://homepages.pathfinder.gr/electric



Lynyrd Skynyrd-Simple Man
-------------------------
One of the best Classic Rock songs ever,and not to difficult
to learn.I've found many tabs for this song but they weren't very
accurate so i decided to tab it myself.Check it out.

Tune 1/2 step down

Intro:
-----------------------------------------------------------
-----------------1---------------------------------1-------
-----------0-------0---0---------0-----------2-------2---2-
-------------2-------2-----0-------0---0-------2-------2---
---0-2---3-----3-------------2-------2-----0-----0---------
-------------------------3-----3---------------------------



---------3----
---1-------1--
-----2--------
-------2------
-0------------
--------------


Main Riff:
(Guitar2 is a slightly distorted guitar and is not to loud.
Some times you can't even hear it.The song will sound the
same even without it.)

Guitar1
---------------------------------------------------------
---------------1---------------------------------1-------
---------0-------0---0---------0-----------2-------2---2-
-----------2-------2-----0-------0---0-------2-------2---
-0-2---3-----3-------------2-------2-----0-----0---------
-----------------------3-----3---------------------------
| |
| |
|Guitar2 |
---------------------------------------------------------
---------------1-----------------------------------------
---------0-------0-------------0-------------------2-----
-------------------------0-------0-------------------2---
-0-2---3-----3-----3-2-------------2-----0--3--0---------
-----------------------3-----3-------3-------------------


Guitar1
---------3----
---1-------1--
-----2--------
-------2------
-0------------
--------------
| |
| |
|Guitar2 |
---------3----
---1-------1--
-----2--------
-------2------
-0------------
--------------



Riff

--------------------------------------------------------
--------------------------------------------------------
-------------------------------------------------------- (2x)
--------------------------------------------------------
--0-2---3~---5\7/5-3------5\7/5-3-----------------------
---------------------3~-------------5~----0-3-0-3\5~----


Chorus


--------------------------------------------------------
--------------------------------------------------------
-------------------------------------------------------- (4x)
------10---10------5----5--------7-------------7--------
------10---10------5----5--------7-------------7--------
------8----8----3--3----3---0----5----0-3-0----5--------


Solo back:
--------------------------------------------------------
--------------------------------------------------------
--------------------------------------------------------
--------------------------------------0---0-------------
-----10---10--10--12--10--5---5-5-5-----------5/7-7-7-7-
-----8----8---8---10--8---3---3-3-3-----------3/5-5-5-5-



-------------------------
-------------------------
-------------------------
-------------------------
--5-5-5/7-7-7-7/10-10/7--
--3-3-3/5-5-5-5/8--8/-5--


Solo:
--------------------------------------------------------
-----------8~-----8-----8~-----------------------13-----
-----5-7---7b-----7br-5-7~---7br-5------12h14-14----14--
-----------------------------------7--------------------
--------------------------------------------------------
--------------------------------------------------------



--------------------------------------------------------
------------20~----20--------20~--------------------20b-
-17-17/19---19b-------19b-17-19~---19br-17--------------
-------------------------------------------------19-----
--------------------------------------------------------
--------------------------------------------------------



----17-20-20b-20b20b-20b-17-----------------------------
-17-------------------------17--20b---20b-17-20~--------
--------------------------------------------------12/19-
--------------------------------------------------------
--------------------------------------------------------
--------------------------------------------------------



--17-------17-------17---------17-----------------------
-----20b------20b------20b--------17-20b----------------
--------18-------19-------19b------------------------7b-
-------------------------------------------5-5-7-7------
--------------------------------------------------------
--------------------------------------------------------



-------------------5------------------------------------
--8------------------8--8b------------------------13-15-
-----7br-5-7br---7b--------------5-7/9-9/12-12/14-------
-----------------------------5/7------------------------
--------------------------------------------------------
--------------------------------------------------------



------------15-------15--------------15br---5-----------
--15b----12-----15b-----15b-15-13-----------5-----------
----------------------------------------------7br-5-----
----------------------------------------------------7---
--------------------------------------------------------
--------------------------------------------------------



Song Structure:

Intro
Main Riff
Riff
Main Riff
Chorus
Main Riff
Chorus
Solo
Riff
Main Riff
Chorus




Lyrics:

My momma told me, when I was young,
Come sit beside me, my only son.
And listen closely, to what I say,
And if you do this, it will help you, some sunny day.

Oh take your time, don't live too fast.
Troubles will come, and they will pass.
Well find a woman, and you'll find love,
And don't forget son, there is someone up above.

Chorus: And be a simple kind of man.
Oh be something you'll love and understand.
Baby be a simple kind of man.
Oh won't you do this for me son if you can.

Get your lust, the rich man's gold.
All that you need, is in your Soul.
And you can do this, if you try.
All that I want for you my son,
Is to be satisfied.

Chorus:

Solo

Oh don't you worry, you'll find yourself.
Follow your heart, and nothing else.
And you can do this, if you try.
All that I want for you my son,


#3