ελληνική μουσική
321 online   ·  209.048 μέλη

Ο Βασιλιάς της σκόνης

PROFBASILHS
Συγχορδία Ματζόρε
Chat
01.02.2007, 18:54
Μήπως γνωρίζετε που μπορώ να βρω την παρτιτούρα ή την ταμπλατούρα του κομματιού ? Κανένα site για tabs και ελληνικών τραγουδιών υπάρχει σε όλο το internet ? THANKS !
#1   
uNick
MusicHeaven Guru
Chat
01.02.2007, 19:01
Μπορείς να ξεκινήσεις από το kithara.vu.
#2   
jacamar
Σολίστ
Chat
01.02.2007, 19:57
Ο βασιλιάς της σκόνης


εισαγωγή:

C
E----------------------------------------0---------------
B----------------------------3--1--0-h1-----3--1-3-3-3---
G-------0-h2---------------------------------------------
D--2--3-------2--3--3--2--2------------------------------
A--------------------------------------------------------
E--------------------------------------------------------

A5 C5 B5C5 B5 A5 B5
e------------------------------------
B------------------------------------
G------------------------------------
D--(2-2)--5--4s5--5--4--2--4--4--4---
A--(0-0)--3--2s3--3--2--0--2--2--2---
E------------------------------------

C
E----------------------------------------0---------------
B----------------------------3--1--0-h1-----3--1-3-3-3---
G-------0-h2---------------------------------------------
D--2--3-------2--3--3--2--2------------------------------
A--------------------------------------------------------
E--------------------------------------------------------

G5 C5 B5 C5 B5 E5
e----------------------------------
B----------------------------------
G----------------------------------
D----------------5--4--5--4--2-2---
A---3-----3------3--2--3--2--0-0---
E----5-5---5--5--------------------

γέφυρα:
C5 F5 E5- D5 C5D5
e---------------------------------
B---------------------------------
G--5----10---9---7--7--7-7-5-7----
D--5----10---9---7--7--7-7-5-7----
A--3-----8---7---5--5--5-5-3-5----
E---------------------------------

C C5B5C5B5 C
e----------------------------------------------
B----------------------------------------------
G-----------5-4-5-4----------------------------
D-----------5-4-5-4----------------------------
A--0-0-3-0--3-2-3-2--3-2-----------------------
E----------------------------------------------



G
e--------------------------------------12-------------
B--13-12-13----13-12-13----13-12-13-15----15-13-12----
G-----------14----------14----------------------------
D-----------------------------------------------------
A-----------------------------------------------------
E-----------------------------------------------------

e-----------------------------12---------12----
B-----12-13--15-13-15---13-15-----13-15--------
G--14------------------------------------------
D----------------------------------------------
A----------------------------------------------
E----------------------------------------------

e--------------------------------------------------12--13
B--15--13--12---------------13---12---------13--15-------
G-------------------12--14----------12--14---------------
D---------------15---------------------------------------
A--------------------------------------------------------
E--------------------------------------------------------

e--s15-13-----12-------------------
B----------15-----13-12--12--14----
G----------------------------------
D----------------------------------
A----------------------------------
E----------------------------------



F5 G5 A5
D--|--3--|--5--|--7--|
A--|--3--|--5--|--7--|
E--|--1--|--3--|--5--|


#3   
PROFBASILHS
Συγχορδία Ματζόρε
Chat
01.02.2007, 20:15
TNX Jacamar !!
#4   
jacamar
Σολίστ
Chat
01.02.2007, 20:19
χαρά μου!
#5   


Αυτά τα διάβασες;